Sound will begin in 5 seconds

guitar 12

01234567891011121314151617181920212223
E
B
G
D
A
E
B
0 1 2 3 4 5 6 7 8 9 10 11 12 13 14 15 16 17 18 19 20 21 22 23
Song Science #1: How Pros Use 6 Chords to Write Hit Songs
(/) Slide Up  (\) Slide Down  (h) Hammer On  (p) Pull Off  (b) Bend (r) Release (v) Vibrato

Stave 1:

E|------------------|----------------------------------------------------|------------------------------|--
B|------------------|----------------------------------------------------|------------------------------|--
G|---------------0--|------------9--10--10--9--10------------------------|--------8h10p8----------------|--
D|-------2----------|-----7--10--------------------10--8--7--8--7--------|--9h10----------10--9---------|--
A|------------------|--8-------------------------------------------9--8--|-----------------------10/12--|--
E|--0h3-----0h2-----|----------------------------------------------------|------------------------------|--

Stave 2:

E|-----------------------------------------------------|----------------0-------------|--
B|-----------------------------------------------------|-------------0-----0----------|--
G|-----0--------------------------0--------------------|--------3h4-----------4p3-----|--
D|--2-----2--------------------2-----2-----------------|---------------------------6--|--
A|-----------1-----1--1--0--------------0--------------|-----6------------------------|--
E|--------------------------------------------3--3--1--|--4---------------------------|--

Stave 3:

E|----------------------------|------------------------------------|--
B|-----------------11---------|------------------------------------|--
G|-------------12------12/14--|----------6----------------7--7--6--|--
D|------11h14-----------------|-------7-----5----------7-----------|--
A|--12------------------------|--0h7--------------0h7--------------|--
E|----------------------------|------------------------------------|--

http://www.guitartabcreator.com
Guitar Tab Creator is intended to store guitar tab created through the tool. It currently does not support in-line text editing. Any text you place in here will be lost. If you need to comment on your tab, please use the "Tab Notes" section located below.