Sound will begin in 5 seconds

guitar 11

Chords
01234567891011121314151617181920212223
E
B
G
D
A
E
B
0 1 2 3 4 5 6 7 8 9 10 11 12 13 14 15 16 17 18 19 20 21 22 23
Song Science #1: How Pros Use 6 Chords to Write Hit Songs
(/) Slide Up  (\) Slide Down  (h) Hammer On  (p) Pull Off  (b) Bend (r) Release (v) Vibrato

Stave 1:

E|--------------------|--------------------------------------|--
B|--------------------|--------------------------------------|--
G|--------------------|-----3--2--------------5-----------7--|--
D|--------------------|-----------3--------5-----------7-----|--
A|--8--7--7--8--7--8--|--1--------------3-----------5--------|--
E|--6--6--5--5--5--5--|--------------------------------------|--

Stave 2:

E|-----------3-------------------6--7--|--9--5h6p5\3--5--2h3p2-------|--------------------
B|--------2-----2-------5--7--8--------|------------------------3/5--|-------------10--7--
G|-----4-----------4/7-----------------|-----------------------------|--4-------9---------
D|--5----------------------------------|-----------------------------|-----5/7------------
A|-------------------------------------|-----------------------------|--------------------
E|-------------------------------------|-----------------------------|--------------------

Stave 3:

E|-----------------------------------------------------|-----------------------------|--
B|--------3-----------3-----------7-----7/9------------|-----------------------------|--
G|-----6-----6-----6-----6-----6-----6-------7--7\6/7--|--6/9------------------9--7--|--
D|--4-----------4-----------4--------------------------|-------9\5-------8--6--------|--
A|-----------------------------------------------------|------------5h7--------------|--
E|-----------------------------------------------------|-----------------------------|--

http://www.guitartabcreator.com
Guitar Tab Creator is intended to store guitar tab created through the tool. It currently does not support in-line text editing. Any text you place in here will be lost. If you need to comment on your tab, please use the "Tab Notes" section located below.