Sound will begin in 5 seconds

bass 3

01234567891011121314151617181920212223
E
B
G
D
A
E
B
0 1 2 3 4 5 6 7 8 9 10 11 12 13 14 15 16 17 18 19 20 21 22 23
Song Science #1: How Pros Use 6 Chords to Write Hit Songs
(/) Slide Up  (\) Slide Down  (h) Hammer On  (p) Pull Off  (b) Bend (r) Release (v) Vibrato

Stave 1:

G|--------------------|---------------------
D|-----5--------------|---------------------
A|--5-----5-----------|--------7/10h12--12--
E|-----------8--7--5--|--5--8---------------

Stave 2:

G|--------|-----------------|--------------|--------5--0--2--
D|--------|-----2-----3--3--|-----2-----0--|--2--3-----------
A|--0--0--|--0-----0--------|--3-----3-----|-----------------
E|--------|-----------------|--------------|-----------------

Stave 3:

G|---------------------------|----------------------------
D|---------------------------|----------------------------
A|-----9------9-----9-----8--|-----9------9-----7--10--9--
E|--7-----10-----8-----7-----|--7-----10-----9------------

Stave 4:

G|-----------------|--------------------5--|----------7--5-----
D|-----------------|-----------------7-----|-------5--------7--
A|--7-----6-----5--|--7-----6-----5--------|--5h7--------------
E|-----8-----7-----|-----8-----7-----------|-------------------

http://www.guitartabcreator.com
Guitar Tab Creator is intended to store guitar tab created through the tool. It currently does not support in-line text editing. Any text you place in here will be lost. If you need to comment on your tab, please use the "Tab Notes" section located below.