Sound will begin in 5 seconds

G Dorian -

01234567891011121314151617181920212223
E
B
G
D
A
E
B
0 1 2 3 4 5 6 7 8 9 10 11 12 13 14 15 16 17 18 19 20 21 22 23
Song Science #1: How Pros Use 6 Chords to Write Hit Songs
(/) Slide Up  (\) Slide Down  (h) Hammer On  (p) Pull Off  (b) Bend (r) Release (v) Vibrato

Stave 1:

E|--------------------------------------------3--5--6--
B|-----------------------------------3--5--6-----------
G|--------------------------2--3--5--------------------
D|-----------------2--3--5-----------------------------
A|-----------3--5--------------------------------------
E|--3--5--6--------------------------------------------

Stave 2:

E|--------------------------------------------5--6--8--
B|-----------------------------------5--6--8-----------
G|-----------------------------5--7--------------------
D|--------------------5--7--8--------------------------
A|-----------5--7--8-----------------------------------
E|--5--6--8--------------------------------------------

Stave 3:

E|--------------------------------------------------8--10--
B|---------------------------------------8--10--11---------
G|-----------------------------7--9--10--------------------
D|-------------------7--8--10------------------------------
A|---------7--8--10----------------------------------------
E|--8--10--------------------------------------------------

Stave 4:

E|---------------------------------------------------------10--12--13--
B|---------------------------------------------10--11--13--------------
G|----------------------------------9--10--12--------------------------
D|--------------------------10--12-------------------------------------
A|--------------10--12--13---------------------------------------------
E|--10--12--13---------------------------------------------------------

Stave 5:

E|----------------------------------------------------------12--13--15--
B|--------------------------------------------------13--15--------------
G|--------------------------------------12--14--15----------------------
D|--------------------------12--14--15----------------------------------
A|--------------12--13--15----------------------------------------------
E|--12--13--15----------------------------------------------------------

http://www.guitartabcreator.com
Guitar Tab Creator is intended to store guitar tab created through the tool. It currently does not support in-line text editing. Any text you place in here will be lost. If you need to comment on your tab, please use the "Tab Notes" section located below.