Sound will begin in 5 seconds

Suicide Mission (In Progress)

01234567891011121314151617181920212223
E
B
G
D
A
E
B
0 1 2 3 4 5 6 7 8 9 10 11 12 13 14 15 16 17 18 19 20 21 22 23
Top Courses in Music 160x600
(/) Slide Up  (\) Slide Down  (h) Hammer On  (p) Pull Off  (b) Bend (r) Release (v) Vibrato

Stave 1:

E|-----------------------
B|-----------------------
G|-----------------------
D|--7-----5--------------
A|-----8-----8--7--8--5--
E|-----------------------

Stave 2:

E|------------------------------
B|------------------------------
G|--14------12------------------
D|------15------15--14--15--12--
A|------------------------------
E|------------------------------

Stave 3:

E|-------------------------------------
B|--15--11--13--8--10--11--18--20--15--
G|-------------------------------------
D|-------------------------------------
A|-------------------------------------
E|-------------------------------------

Stave 4:

E|--------------------------------
B|-------------8------8-----------
G|--\7--9--10-----10-----5--------
D|--------------------------9--7--
A|--------------------------------
E|--------------------------------

Stave 5:

E|------------------------------
B|------17--18--20--18--20--13--
G|--19--------------------------
D|------------------------------
A|------------------------------
E|------------------------------

http://www.guitartabcreator.com
Guitar Tab Creator is intended to store guitar tab created through the tool. It currently does not support in-line text editing. Any text you place in here will be lost. If you need to comment on your tab, please use the "Tab Notes" section located below.