Sound will begin in 5 seconds

Etereo - Sueños

01234567891011121314151617181920212223
E
B
G
D
A
E
B
0 1 2 3 4 5 6 7 8 9 10 11 12 13 14 15 16 17 18 19 20 21 22 23
Song Science #1: How Pros Use 6 Chords to Write Hit Songs
(/) Slide Up  (\) Slide Down  (h) Hammer On  (p) Pull Off  (b) Bend (r) Release (v) Vibrato

Stave 1:

F|------------------|-----------------10------12--|------------------------|-----------------
C|--0--3--5--8--10--|--0--3--10\5--8------10------|------------------------|-----------------
G|------------------|-----------------------------|------------------10\0--|--------5--7--7--
C|------------------|-----------------------------|--0--3--5--8--10--------|--7--5-----------

Stave 2:

F|------------------------------------------------|--------------|--------------
C|------------------------------------------------|--------------|--7--5--------
G|---------------------------------8------10------|--------------|--------5--5--
C|--0--3--5--8--10--0--3--10\5--8-----10------10--|--7--5--0--0--|--------------

Stave 3:

F|--------------------------------------|-----------------|----------------|----------------------------------
C|-----7--------5--------3--------5-----|-----------------|----------------|----------------------------------
G|--5-----5--3-----3--1-----1--3-----3--|--------8--7--5--|--8--10--8--10--|--10--5--10--5--8--10--8--10--10--
C|--------------------------------------|--5--0-----------|----------------|----------------------------------

Stave 4:

F|--------------------------------------------------|--------------
C|--------------------------8--8--------8--8--------|--------------
G|--5--5--0--0--5--5--0--0--------5--5--------5--5--|--5--3--1--3--
C|--------------------------------------------------|--------------

http://www.guitartabcreator.com
Guitar Tab Creator is intended to store guitar tab created through the tool. It currently does not support in-line text editing. Any text you place in here will be lost. If you need to comment on your tab, please use the "Tab Notes" section located below.