Sound will begin in 5 seconds

Chupacabra (Bass)

01234567891011121314151617181920212223
E
B
G
D
A
E
B
0 1 2 3 4 5 6 7 8 9 10 11 12 13 14 15 16 17 18 19 20 21 22 23
Song Science #1: How Pros Use 6 Chords to Write Hit Songs
(/) Slide Up  (\) Slide Down  (h) Hammer On  (p) Pull Off  (b) Bend (r) Release (v) Vibrato

Stave 1:

G|-------------------------------------------------------
D|-------------------------------------------------2-----
A|-5h7-7-7-7-7-----------------------2-3-2-----3-5---5-3-
E|-------------3h5-5-5-5-5-------0-3-------3-5-----------

Stave 2:

G|-------------------------------------------------------
D|-------------------------------------------------2-----
A|-5h7-7-7-7-7-----------------------2-3-2-----3-5---5-3-
E|-------------3h5-5-5-5-5-------0-3-------3-5-----------

Stave 3:

G|-------------------------------------------------------
D|-------------------------------------------------2-----
A|-5h7-7-7-7-7-----------------------2-3-2-----3-5---5-3-
E|-------------3h5-5-5-5-5-------0-3-------3-5-----------

Stave 4:

G|------------------------------
D|------------------------------
A|-----2-3-2--------------------
E|-0-3-------3----3/7-7-7-7-7-7-

Stave 5:

G|-------------------------------------------------
D|-------------------------------------------------
A|-------------------------------------------------
E|-0-0-0-0-0-0-3-0-0-3-0-0-0-0-0-0-0-0-3-0-0-3-0-0-

Stave 6:

G|-------------------------------------------------
D|-------------2-----2-----------------0-----0-----
A|-3-3-3-3-3-3---3-3---3-3-1-1-1-1-1-1---1-1---1-1-
E|-------------------------------------------------

Stave 7:

G|-------------------------------------------------------------
D|-------------------------------------------------------------
A|-0----0-0-0-0----0-0-2----2-2-2-2----2-2-3----3-3-3-3----3-3-
E|-------------------------------------------------------------

Stave 8:

G|---------------
D|---------------
A|-6-6-6-6-6-6-6-
E|---------------

Stave 9:

G|-------------------------------------------------------
D|-------------------------------------------------2-----
A|-5h7-7-7-7-7-----------------------2-3-2-----3-5---5-3-
E|-------------3h5-5-5-5-5-------0-3-------3-5-----------

Stave 10:

G|-------------------------
D|-------------------------
A|-5h7-7-7-7-7-------------
E|-------------3h5-5-5-5-5-

http://www.guitartabcreator.com
Guitar Tab Creator is intended to store guitar tab created through the tool. It currently does not support in-line text editing. Any text you place in here will be lost. If you need to comment on your tab, please use the "Tab Notes" section located below.