Sound will begin in 5 seconds

Chupacabra

Chords
01234567891011121314151617181920212223
E
B
G
D
A
E
B
0 1 2 3 4 5 6 7 8 9 10 11 12 13 14 15 16 17 18 19 20 21 22 23
Song Science #1: How Pros Use 6 Chords to Write Hit Songs
(/) Slide Up  (\) Slide Down  (h) Hammer On  (p) Pull Off  (b) Bend (r) Release (v) Vibrato

Stave 1:

E|------------------------------------------------------
B|------------------------------------------------------
G|------------------------------------------------------
D|-------------5-------------------------------5--------
A|--5h7--7--7-----7--5-----------5h7--5--7--5-----7--5--
E|------------------------------------------------------

Stave 2:

E|---------------------------------------------x--x--x--
B|---------------------------------------------x--1--x--
G|---------------------------------------------5--2--x--
D|-------------5----------------------5--------5--2--2--
A|--5h7--7--7-----7--5-----5h7--7--7-----7-----3--0--2--
E|---------------------------------------------x--x--0--

Stave 3:

E|--x--x--x-----------x--x--x--3--
B|--x--1--x-----------x--1--x--0--
G|--5--2--x-----------5--2--5--2--
D|--5--2--2-----------5--2--5--1--
A|--3--0--2-----------3--0--3--2--
E|--x--x--0-----------x--x--x--x--

Stave 4:

E|--x--x--x--x-----x--x--x--x--
B|--x--x--x--x-----x--x--x--x--
G|--x--x--5--4-----x--x--5--4--
D|--2--2--5--4-----2--2--5--4--
A|--2--2--3--2-----2--2--3--2--
E|--0--0--x--x-----0--0--x--x--

Stave 5:

E|--x--x--x--x--
B|--1--x--x--x--
G|--2--4--5--8--
D|--2--4--5--8--
A|--0--2--3--6--
E|--x--x--x--x--

Stave 6:

E|----------------------------x--x--x--
B|----------------------------x--1--x--
G|----------------------------5--2--x--
D|-------------5--------------5--2--2--
A|--5h7--7--7-----7--5--------3--0--2--
E|----------------------------x--x--0--

Stave 7:

E|---------------------------------------------------
B|---------------------------------------------------
G|---------------------------------------------------
D|--7b9-----7--7--7b9--7--5-----------------------5--
A|---------------------------7-----5-----------------
E|------------------------------------------5--7-----

Stave 8:

E|--------------------------------------------------------------------0--
B|--------------------------------------------------------------------0--
G|--------------------------------------------------------------------0--
D|--7--5-----------5--7--5-----------5--7--5-----------5--------------0--
A|--------7--5--7-----------7--5--7-----------7--5--7-----7-----5-----0--
E|--------------------------------------------------------------------0--

Stave 9:

E|-------------------------------------------------------------------------------------
B|--10b12--10--10--10b12--10--8-----------8--10--10--10--10--10--10--8--8--8--8--8--8--
G|-------------------------------9--7--9-----------------------------------------------
D|-------------------------------------------------------------------------------------
A|-------------------------------------------------------------------------------------
E|-------------------------------------------------------------------------------------

Stave 10:

E|---------------------------------------------------------------------------------------------
B|--7--7--7--7--7--7--6--6--6--6--6--6-----10b12--8--------10b12--8--------10b12--8-----8--10--
G|---------------------------------------------------9---------------9---------------9---------
D|---------------------------------------------------------------------------------------------
A|---------------------------------------------------------------------------------------------
E|---------------------------------------------------------------------------------------------

Stave 11:

E|--8--8--8--8--8--8--10--10--10--10--10--10--12--12--12--12--12--12--15--15--15--15--15--
B|----------------------------------------------------------------------------------------
G|----------------------------------------------------------------------------------------
D|----------------------------------------------------------------------------------------
A|----------------------------------------------------------------------------------------
E|----------------------------------------------------------------------------------------

Stave 12:

E|--x--
B|--x--
G|--x--
D|--2--
A|--2--
E|--0--

Stave 13:

E|-------------------------------------
B|-------------------------------------
G|-------------------------------------
D|-------------------------------------
A|--5h7--7--7--7--7-----5--------------
E|-------------------------7--6--5--3--

http://www.guitartabcreator.com
Guitar Tab Creator is intended to store guitar tab created through the tool. It currently does not support in-line text editing. Any text you place in here will be lost. If you need to comment on your tab, please use the "Tab Notes" section located below.