Sound will begin in 5 seconds

Alter Bridge - Breathe (first minute)

Chords
01234567891011121314151617181920212223
E
B
G
D
A
E
B
0 1 2 3 4 5 6 7 8 9 10 11 12 13 14 15 16 17 18 19 20 21 22 23
Top Courses in Music 160x600
(/) Slide Up  (\) Slide Down  (h) Hammer On  (p) Pull Off  (b) Bend (r) Release (v) Vibrato

Stave 1:

Eb|---------------------------------------------
Bb|------------------------12-------------------
Gb|---------11--12p11----------12p11------11\9--
Db|-----12-------------12-------------12--------
Ab|---------------------------------------------
Eb|--0------------------------------------------

Stave 2:

Eb|---------------------------------------
Bb|---------------------------------------
Gb|-----------------11h12/16\12p11--------
Db|----------9--12------------------12\9--
Ab|-----7/9-------------------------------
Eb|--0------------------------------------

Stave 3:

Eb|---------------------------------------------
Bb|------------------------12-------------------
Gb|---------11--12p11----------12p11------11\9--
Db|-----12-------------12-------------12--------
Ab|---------------------------------------------
Eb|--0------------------------------------------

Stave 4:

Eb|---------------------------------12--
Bb|---------------------------------12--
Gb|-------0-------------7--9/12p11--12--
Db|--2/4-----4--4/9--9--------------13--
Ab|-------------------------------------
Eb|-------------------------------------

Stave 5:

Eb|--7--|--5--5--|--5--5--|--
Bb|--7--|--7--5--|--5--5--|--
Gb|--9--|--7--7--|--6--7--|--
Db|--9--|--5--7--|--7--7--|--
Ab|--7--|--5--5--|--------|--
Eb|--7--|--5--5--|--------|--

Stave 6:

Eb|-----|--------|-----|-----|--------|--
Bb|-----|--------|-----|-----|--------|--
Gb|-----|--------|-----|--7--|--------|--
Db|-----|--2--4--|--5--|--7--|--7--9--|--
Ab|-----|--2--4--|--5--|--5--|--7--7--|--
Eb|--3--|--0--2--|--3--|--5--|--5--5--|--

Stave 7:

Eb|--3--
Bb|--3--
Gb|--0--
Db|--0--
Ab|--2--
Eb|--3--

http://www.guitartabcreator.com
Guitar Tab Creator is intended to store guitar tab created through the tool. It currently does not support in-line text editing. Any text you place in here will be lost. If you need to comment on your tab, please use the "Tab Notes" section located below.