Sound will begin in 5 seconds

deule

Chords
01234567891011121314151617181920212223
E
B
G
D
A
E
B
0 1 2 3 4 5 6 7 8 9 10 11 12 13 14 15 16 17 18 19 20 21 22 23
Top Courses in Music 160x600
(/) Slide Up  (\) Slide Down  (h) Hammer On  (p) Pull Off  (b) Bend (r) Release (v) Vibrato

Stave 1:

E|--------------------------------------------------------------------------------------------------
B|--1--------1--0-----0-----------------------------1--------1--0-----0-----------------------------
G|-----2-----------0-----2-----2-----2--4-----4--------2-----------0-----2-----2-----2--0-----0-----
D|--------2-----------------3-----3--------5-----5--------2-----------------3-----3--------0-----0--
A|--------------------------------------------------------------------------------------------------
E|--------------------------------------------------------------------------------------------------

Stave 2:

E|--------------------------------------------------0-----------------------------------------0-----
B|--1--------1--0-----0--------------------------------1-----3--0-----1--------0--------0-----------
G|-----2-----------0-----2-----2-----2--4-----4-----------2--------0-----2--------1--------------1--
D|--------2-----------------3-----3--------5-----5--------------------------3--------2-----2--------
A|--------------------------------------------------------------------------------------------------
E|--------------------------------------------------------------------------------------------------

Stave 3:

E|--------------------------------------------------------------------------------------------------
B|--1--------1--0-----0-----------------------------1--------1--0-----0-----------------------------
G|-----2-----------0-----2-----2-----2--4-----4--------2-----------0-----2-----2-----2--0-----0-----
D|--------2-----------------3-----3--------5-----5--------2-----------------3-----3--------0-----0--
A|--------------------------------------------------------------------------------------------------
E|--------------------------------------------------------------------------------------------------

Stave 4:

E|--------------------------------------------------------------------------------------------------
B|--1--------1--0-----0-----------------------------1--------1--0-----0-----------------------------
G|-----2-----------0-----2-----2-----2--4-----4--------2-----------0-----2-----2-----2--0-----0-----
D|--------2-----------------3-----3--------5-----5--------2-----------------3-----3--------0-----0--
A|--------------------------------------------------------------------------------------------------
E|--------------------------------------------------------------------------------------------------

Stave 5:

E|--5--5--5--5--7--7--7--7--8---8---8---8---10--10--10--10--------------------
B|--5--5--5--5--8--8--8--8--10--10--10--10--12--12--12--12--------------------
G|--5--5--5--5--9--9--9--9--10--10--10--10--12--12--12--12-----------------5--
D|--7--7--7--7--9--9--9--9--10--10--10--10--12--12--12--12--------------------
A|--7--7--7--7--7--7--7--7--8---8---8---8---10--10--10--10--------------------
E|--5--5--5--5--7--7--7--7--8---8---8---8---10--10--10--10--------------------

http://www.guitartabcreator.com
Guitar Tab Creator is intended to store guitar tab created through the tool. It currently does not support in-line text editing. Any text you place in here will be lost. If you need to comment on your tab, please use the "Tab Notes" section located below.