Sound will begin in 5 seconds

Glorious

Chords
01234567891011121314151617181920212223
E
B
G
D
A
E
B
0 1 2 3 4 5 6 7 8 9 10 11 12 13 14 15 16 17 18 19 20 21 22 23
Song Science #1: How Pros Use 6 Chords to Write Hit Songs
(/) Slide Up  (\) Slide Down  (h) Hammer On  (p) Pull Off  (b) Bend (r) Release (v) Vibrato

Stave 1:

E|--------------
B|--------------
G|-----------9--
D|--9--4--6--9--
A|--9--4--6--7--
E|--7--2--4-----

Stave 2:

E|--7--6--4--7--6--4-----7--6--4--7--6--4-----7--6--4--7--6--4-----------------------------------
B|--------------------7--------------------7--------------------7-----------7--------------------
G|-----------------------------------------------------------------6--8--8-----8--6--4--4--6--4--
D|-----------------------------------------------------------------------------------------------
A|-----------------------------------------------------------------------------------------------
E|-----------------------------------------------------------------------------------------------

Stave 3:

E|--7--7--2--4--
B|--9--7--2--4--
G|--8--8--3--4--
D|--9--9--4--6--
A|--7--9--4--6--
E|-----7--2--4--

Stave 4:

E|--7--6--4--7--
B|--7--8--4--9--
G|--8--8--4--9--
D|--9--8--6--9--
A|--9--6--6--7--
E|--7-----4-----

Stave 5:

E|-----------------
B|-----------------
G|--9-----9--------
D|--9--6--9--9--4--
A|--7--6--7--9--4--
E|-----4-----7--2--

http://www.guitartabcreator.com
Guitar Tab Creator is intended to store guitar tab created through the tool. It currently does not support in-line text editing. Any text you place in here will be lost. If you need to comment on your tab, please use the "Tab Notes" section located below.