Sound will begin in 5 seconds

Battlefield 1942 Theme

Chords
01234567891011121314151617181920212223
E
B
G
D
A
E
B
0 1 2 3 4 5 6 7 8 9 10 11 12 13 14 15 16 17 18 19 20 21 22 23
Song Science #1: How Pros Use 6 Chords to Write Hit Songs
(/) Slide Up  (\) Slide Down  (h) Hammer On  (p) Pull Off  (b) Bend (r) Release (v) Vibrato

Stave 1:

E|--0--0--0--0--|--0--0--|--0--0--0--0--|--0--0--|--0--0--0--0--|--0--0--|--0--0--0--0--|--0--0--|--
B|--0--0--0--0--|--1--1--|--0--0--0--0--|--3--3--|--0--0--0--0--|--1--1--|--0--0--0--0--|--3--3--|--
G|--0--0--0--0--|--2--2--|--0--0--0--0--|--4--4--|--0--0--0--0--|--2--2--|--0--0--0--0--|--4--4--|--
D|--2--2--2--2--|--2--2--|--2--2--2--2--|--4--4--|--2--2--2--2--|--2--2--|--2--2--2--2--|--4--4--|--
A|--2--2--2--2--|--0--0--|--2--2--2--2--|--2--2--|--2--2--2--2--|--0--0--|--2--2--2--2--|--2--2--|--
E|--0--0--0--0--|--------|--0--0--0--0--|--0--0--|--0--0--0--0--|--------|--0--0--0--0--|--0--0--|--

Stave 2:

E|--0--0--0--0--|--0--0--|--3--3--3--3--|--------|--0--0--0--0--|--0--0--|--3--3--3--3--|--------|--
B|--0--0--0--0--|--1--1--|--3--3--3--3--|--3--3--|--0--0--0--0--|--1--1--|--3--3--3--3--|--3--3--|--
G|--0--0--0--0--|--2--2--|--4--4--4--4--|--2--2--|--0--0--0--0--|--2--2--|--4--4--4--4--|--2--2--|--
D|--2--2--2--2--|--2--2--|--5--5--5--5--|--0--0--|--2--2--2--2--|--2--2--|--5--5--5--5--|--0--0--|--
A|--2--2--2--2--|--0--0--|--5--5--5--5--|--0--0--|--2--2--2--2--|--0--0--|--5--5--5--5--|--0--0--|--
E|--0--0--0--0--|--------|--3--3--3--3--|--------|--0--0--0--0--|--------|--3--3--3--3--|--------|--

Stave 3:

E|--------------|--------|--------------|-----------|--------------|--------|--------------|-----------|--
B|--0--0--0--0--|--1--1--|--0--0--0--0--|--3--------|--0--0--0--0--|--1--1--|--0--0--0--0--|--3--------|--
G|--0--0--0--0--|--2--2--|--0--0--0--0--|--4--------|--0--0--0--0--|--2--2--|--0--0--0--0--|--4--------|--
D|--2--2--2--2--|--2--2--|--2--2--2--2--|--4-----0--|--2--2--2--2--|--2--2--|--2--2--2--2--|--4-----0--|--
A|--------------|--0--0--|--------------|-----2-----|--------------|--0--0--|--------------|-----2-----|--
E|--0--0--0--0--|--------|--0--0--0--0--|-----------|--0--0--0--0--|--------|--0--0--0--0--|-----------|--

Stave 4:

E|--------------|--------|--------------|--------|--------------|--------|--------------|--------2--3--2--
B|--0--0--0--0--|--1--1--|--0--0--0--0--|--3--3--|--0--0--0--0--|--1--1--|--0--0--0--0--|--3--3-----------
G|--0--0--0--0--|--2--2--|--0--0--0--0--|--2--2--|--0--0--0--0--|--2--2--|--0--0--0--0--|--2--2-----------
D|--2--2--2--2--|--2--2--|--0--0--0--0--|--0--0--|--2--2--2--2--|--2--2--|--0--0--0--0--|--0--0-----------
A|--------------|--0--0--|--------------|--0--0--|--------------|--0--0--|--------------|--0--0-----------
E|--0--0--0--0--|--------|--3--3--3--3--|--------|--0--0--0--0--|--------|--3--3--3--3--|-----------------

Stave 5:

E|--0-----------|--------|--------------|--2--------|--0-----------|--------|--------------|--2--------2h3p2--|--
B|--------------|--1--1--|--0--0--0--0--|-----3-----|--------------|--1--1--|--0--0--0--0--|-----3------------|--
G|-----0--0--0--|--2--2--|--0--0--0--0--|--------4--|-----0--0--0--|--2--2--|--0--0--0--0--|--------4---------|--
D|-----2--2--2--|--2--2--|--2--2--2--2--|-----4-----|-----2--2--2--|--2--2--|--2--2--2--2--|-----4------------|--
A|-----2--2--2--|--0--0--|--------------|--2--------|-----2--2--2--|--0--0--|--------------|--2---------------|--
E|--0--0--0--0--|--------|--0--0--0--0--|-----------|--0--0--0--0--|--------|--0--0--0--0--|------------------|--

Stave 6:

E|--0-----0--2--3--|--5-----5--3p2--|--3-----3--2--3--|--2--------|--0--------------|--5-----------|--7------7--5h7p5-----|--5--7--0--|--
B|-----0--0-----0--|--5--5----------|--0--0--0-----0--|--3--3--0--|-----0--5--7--8--|--5--5--8--7--|--8---8------------8--|--7-----0--|--
G|-----0--0-----0--|--5--5----------|--0--0--0-----0--|--2--2-----|-----0--0-----0--|--5--5--------|--7---7---------------|--7--------|--
D|-----------------|----------------|-----------------|--0--------|-----------------|-----7--------|------9---------------|--0--------|--
A|-----------------|--0-------------|-----------------|-----------|-----------------|--0-----------|--10------------------|-----------|--
E|--0-----0--------|----------------|--3-----3--------|-----------|--0-----0--------|--------------|----------------------|-----------|--

Stave 7:

E|--8--------5--|--10--10-----|-----5--5--5--|--7--------|--5-----------|-----10--10-----|-----5--5--5--|--7-----8--7--
B|--5--5--5--5--|--10--10--0--|-----5--5--5--|-----8-----|--5--5--5--5--|-----10--10--0--|-----5--5--5--|--8--8--------
G|--5--5--5--5--|--10--10-----|--5--5--5--5--|--------9--|--5--5--5--5--|-----10--10-----|--5--5--5--5--|--9-----------
D|-----7--7-----|--0----------|--------------|-----------|--------------|-----0----------|--------------|--------------
A|--0-----------|-------------|--0-----------|--7--------|--0-----------|----------------|--0-----------|--------------
E|--------------|-------------|--------------|-----------|--------------|----------------|--------------|--------------

Stave 8:

E|--5-----5--7--8--|--10------8--7--|--8-----8--7--5--|--7--5-----|--5-----------------|--13--12--13--|--12--10--12--5--3--|--2--0-----|--
B|--5--5--5-----5--|--10--10--------|--5--5-----------|--------8--|--5--5--10--12--13--|--10----------|--------------------|--3-----3--|--
G|--5--5--5--------|--10--10--------|--5--5-----------|-----------|--5--5--------------|--10----------|--------------------|--2--------|--
D|-----------------|--0----------0--|-----------------|--5--------|--------------------|--0-----------|--10----------------|--0--------|--
A|--0-----0--------|----------------|-----------------|-----------|--0-----------------|--------------|--------------------|-----------|--
E|-----------------|----------------|-----------------|-----------|--------------------|--------------|--------------------|-----------|--

Stave 9:

E|--3--------3--------3--------3-----5--|--6--------6--------6--------6-----5--|--
B|-----5--------5--------5--------5-----|-----3--------3--------3--------3-----|--
G|--------0--------0--------0-----------|--------3--------3--------3-----------|--
D|--------------------------------------|--------------------------------------|--
A|--------------------------------------|--------------------------------------|--
E|--0-----------------------------------|--3-----------------------------------|--

Stave 10:

E|--6--------6--------6--------6-----5--|--9--------9--------9--------9-----8--|--
B|-----3--------3--------3--------3-----|-----6--------6--------6--------6-----|--
G|--------3--------3--------3-----------|--------6--------6--------6-----------|--
D|--------------------------------------|--------------------------------------|--
A|--------------------------------------|--------------------------------------|--
E|--3-----------------------------------|--6-----------------------------------|--

Stave 11:

E|---------------------------------|--
B|---------------------------------|--
G|--3h4p3h4p3h4p3h4p3h4p3h4p3h4p3--|--
D|---------------------------------|--
A|---------------------------------|--
E|---------------------------------|--

Stave 12:

E|--0--0--0--0--|--0--0--|--0--0--0--0--|--0--0--|--0--0--0--0--|--0--0--|--0--0--0--0--|--0--0--|--
B|--0--0--0--0--|--1--1--|--0--0--0--0--|--3--3--|--0--0--0--0--|--1--1--|--0--0--0--0--|--3--3--|--
G|--0--0--0--0--|--2--2--|--0--0--0--0--|--4--4--|--0--0--0--0--|--2--2--|--0--0--0--0--|--4--4--|--
D|--2--2--2--2--|--2--2--|--2--2--2--2--|--4--4--|--2--2--2--2--|--2--2--|--2--2--2--2--|--4--4--|--
A|--2--2--2--2--|--0--0--|--2--2--2--2--|--2--2--|--2--2--2--2--|--0--0--|--2--2--2--2--|--2--2--|--
E|--0--0--0--0--|--------|--0--0--0--0--|--0--0--|--0--0--0--0--|--------|--0--0--0--0--|--0--0--|--

Stave 13:

E|--0--0--0--0--|--0--0--|--3--3--3--3--|--2--2--|--0--0--0--0--|--0--0--|--3--0--|--0--|--
B|--0--0--0--0--|--1--1--|--3--3--3--3--|--3--3--|--0--0--0--0--|--1--1--|--3--1--|--0--|--
G|--0--0--0--0--|--2--2--|--4--4--4--4--|--2--2--|--0--0--0--0--|--2--2--|--4--2--|--0--|--
D|--2--2--2--2--|--2--2--|--5--5--5--5--|--0--0--|--2--2--2--2--|--2--2--|--5--2--|--2--|--
A|--2--2--2--2--|--0--0--|--5--5--5--5--|--0--0--|--2--2--2--2--|--0--0--|--5--0--|--2--|--
E|--0--0--0--0--|--------|--3--3--3--3--|--------|--0--0--0--0--|--------|--3-----|--0--|--

http://www.guitartabcreator.com
Guitar Tab Creator is intended to store guitar tab created through the tool. It currently does not support in-line text editing. Any text you place in here will be lost. If you need to comment on your tab, please use the "Tab Notes" section located below.