Sound will begin in 5 seconds

night call rythmique guitare 2

Chords
01234567891011121314151617181920212223
E
B
G
D
A
E
B
0 1 2 3 4 5 6 7 8 9 10 11 12 13 14 15 16 17 18 19 20 21 22 23
Top Courses in Music 160x600
(/) Slide Up  (\) Slide Down  (h) Hammer On  (p) Pull Off  (b) Bend (r) Release (v) Vibrato

Stave 1:

E|--5-----5--x-----5-----3-----3--x-----3--3--x-----|--
B|--5-----5--x-----5-----3-----3--x-----3--3--x-----|--
G|--6-----6--x-----6-----4-----4--x-----4--4--x-----|--
D|--7-----7--x-----7-----5-----5--x-----5--5--x-----|--
A|--7-----7--x-----7-----5-----5--x-----5--5--x-----|--
E|--5-----5--x-----5-----3-----3--x-----3--3--x-----|--

Stave 2:

E|--5-----10-----5-----|--
B|--5-----10-----5-----|--
G|--6-----11-----6-----|--
D|--7-----12-----7-----|--
A|--7-----12-----7-----|--
E|--5-----10-----5-----|--

Stave 3:

E|--
B|--
G|--
D|--
A|--
E|--

http://www.guitartabcreator.com
Guitar Tab Creator is intended to store guitar tab created through the tool. It currently does not support in-line text editing. Any text you place in here will be lost. If you need to comment on your tab, please use the "Tab Notes" section located below.