Sound will begin in 5 seconds

night call rythmique guitare

Chords
01234567891011121314151617181920212223
E
B
G
D
A
E
B
0 1 2 3 4 5 6 7 8 9 10 11 12 13 14 15 16 17 18 19 20 21 22 23
Song Science #1: How Pros Use 6 Chords to Write Hit Songs
(/) Slide Up  (\) Slide Down  (h) Hammer On  (p) Pull Off  (b) Bend (r) Release (v) Vibrato

Stave 1:

E|-----5-----3-----|-----3-----------|-----5-----------|-----3-----------|-----10-----------|--
B|-----5-----3-----|-----3-----------|-----5-----------|-----3-----------|-----10-----------|--
G|-----6-----4-----|-----4-----------|-----6-----------|-----4-----------|-----11-----------|--
D|-----7-----5-----|-----5-----------|-----7-----------|-----5-----------|-----12-----------|--
A|-----7-----5-----|-----5-----------|-----7-----------|-----5-----------|-----12-----------|--
E|-----5-----3-----|-----3-----------|-----5-----------|-----3-----------|-----10-----------|--

Stave 2:

E|-----3-----5-----|-----3-----5--10--|-----3--------|-----5--------|--
B|-----3-----5-----|-----3-----5--10--|-----3--------|-----5--------|--
G|-----4-----6-----|-----4-----6--11--|-----4--------|-----6--------|--
D|-----5-----7-----|-----5-----7--12--|-----5--------|-----7--------|--
A|-----5-----7-----|-----5-----7--12--|-----5--------|-----7--------|--
E|-----3-----5-----|-----3-----5--10--|-----3--------|-----5--------|--

http://www.guitartabcreator.com
Guitar Tab Creator is intended to store guitar tab created through the tool. It currently does not support in-line text editing. Any text you place in here will be lost. If you need to comment on your tab, please use the "Tab Notes" section located below.