Sound will begin in 5 seconds

night call riff

Chords
01234567891011121314151617181920212223
E
B
G
D
A
E
B
0 1 2 3 4 5 6 7 8 9 10 11 12 13 14 15 16 17 18 19 20 21 22 23
Song Science #1: How Pros Use 6 Chords to Write Hit Songs
(/) Slide Up  (\) Slide Down  (h) Hammer On  (p) Pull Off  (b) Bend (r) Release (v) Vibrato

null

E|---------------------------------------------|---------------------------------------------
B|--------------------------15--15-------------|-----------------------------15--15----------
G|----------------------------------12---------|-------------------------------------12------
D|--7--7--5--7--14--14--14--------------14-----|-----7--7--5--7--14--14--14--------------14--
A|---------------------------------------------|-----0--0--0--0--0---0---0---0---0---0---0---
E|---------------------------------------------|---------------------------------------------

Stave 2:

E|-----------|--
B|-----------|--
G|-----------|--
D|--5-----7--|--
A|--0-----0--|--
E|-----------|--

Stave 3:

E|--------------------------------
B|--------------------------------
G|-------------------------12--14b
D|--7--7--5--7/12--14--14--0---0--
A|--0--0--0--0-0---0---0----------
E|--------------------------------

Stave 4:

E|-------------------------------------------------------------|--|--
B|-------------------------------------------------------------|--|--
G|--7--7--5--7--14--14--14-----------------------------12--12--|--|--
D|--0--0--0--0--0---0---0------7--7--5--7--14--14--14--14--14--|--|--
A|-----------------------------0--0--0--0--0---0---0---0---0---|--|--
E|-------------------------------------------------------------|--|--

Stave 5:

E|-----------------------|--|--
B|-----------------------|--|--
G|--------------5--5--5--|--|--
D|--7--7--5--7--7--7--7--|--|--
A|--0--0--0--0--0--0--0--|--|--
E|-----------------------|--|--

Stave 6:

E|--3--5--|--
B|--3--5--|--
G|--4--6--|--
D|--5--7--|--
A|--5--7--|--
E|--3--5--|--

http://www.guitartabcreator.com
Guitar Tab Creator is intended to store guitar tab created through the tool. It currently does not support in-line text editing. Any text you place in here will be lost. If you need to comment on your tab, please use the "Tab Notes" section located below.