Sound will begin in 5 seconds

CBTM

Chords
01234567891011121314151617181920212223
E
B
G
D
A
E
B
0 1 2 3 4 5 6 7 8 9 10 11 12 13 14 15 16 17 18 19 20 21 22 23
Song Science #1: How Pros Use 6 Chords to Write Hit Songs
(/) Slide Up  (\) Slide Down  (h) Hammer On  (p) Pull Off  (b) Bend (r) Release (v) Vibrato

Stave 1:

E|-----0--------3-----------------------0--------------1--1-----
B|--1-----1--------3-----0-----3-----1--------2--------1-----1--
G|--------------------0-----0--------2-----2-----2-----2--------
D|--2--------------------------------2-----------------3--------
A|--3-----------2--------------------------------------3--------
E|--x-----------3--------------------x-----------------1--------

Stave 2:

E|------8--------8----------7--------7----------5--------5--7--5-----------------1--
B|---------8-------------------8-------------------5-----------------8--5--------1--
G|--/9--------9---------/7--------7---------/5-----------------------------5-----2--
D|-------------------------------------------------------------------------------3--
A|-------------------------------------------------------------------------------x--
E|-------------------------------------------------------------------------------x--

Stave 3:

E|---\-\----r----/----/-\----\-/-\-/------------------3-----------------1--
B|-------------------------------------------1-----------------1--------1--
G|-------------------------------------------------------------2--------2--
D|-------------------------------------------2-----------------2--------3--
A|-------------------------------------------3--------2-----------------x--
E|-------------------------------------------x--------3--------x--------x--

Stave 4:

E|--\----\----\-/----/-\-/-\----\-/------------------3-----------------1-----
B|------------------------------------------1-----------------1--------1-----
G|------------------------------------------------------------2--------2-----
D|------------------------------------------2-----------------2--------3-----
A|------------------------------------------3--------2-----------------------
E|------------------------------------------x--------3--------x--------------

http://www.guitartabcreator.com
Guitar Tab Creator is intended to store guitar tab created through the tool. It currently does not support in-line text editing. Any text you place in here will be lost. If you need to comment on your tab, please use the "Tab Notes" section located below.