Sound will begin in 5 seconds

Reading Bass Tab

01234567891011121314151617181920212223
E
B
G
D
A
E
B
0 1 2 3 4 5 6 7 8 9 10 11 12 13 14 15 16 17 18 19 20 21 22 23
Song Science #1: How Pros Use 6 Chords to Write Hit Songs
(/) Slide Up  (\) Slide Down  (h) Hammer On  (p) Pull Off  (b) Bend (r) Release (v) Vibrato

Stave 1:

G|----------------------------------------------------5-------5-----|--
D|--------5--6--7--------5--6--7--------5--6--7------------------7--|--
A|--0--0-----------0--0-----------0--0-----------5/6-----6/7--------|--
E|------------------------------------------------------------------|--

Stave 2:

G|-----------------|-----------------|-----------------|-------5-------5-----|--
D|--------5--6--7--|--------5--6--7--|--------5--6--7--|------------------7--|--
A|--0--0-----------|-----------------|--6--6-----------|--5/6-----6/7--------|--
E|-----------------|--8--8-----------|-----------------|---------------------|--

Stave 3:

G|--------------------|--------------------|--------------------|--------------7b8--7--5-----|--
D|--------------------|--------------------|--------------------|-------------------------7--|--
A|--0--2-----0--------|--0--2-----0--------|--0--2-----0--------|--0--2-----0----------------|--
E|--------3--------2--|--------3--------2--|--------3--------2--|--------3-------------------|--

Stave 4:

G|-----------------------------------------------------|--
D|--------7-----------4--------------5-----------------|--
A|--0-----------3--3-----3--0--6-----------0--3--0-----|--
E|--------------------------------------------------3--|--

Stave 5:

G|-------5-------5-----|-------5-------5-----|-------5-------5-----|--7b8--------
D|------------------7--|------------------7--|------------------7--|-------------
A|--5/6-----6/7--------|--5/6-----6/7--------|--5/6-----6/7--------|-------------
E|---------------------|---------------------|---------------------|-------------

Stave 6:

G|-----------------------------|--
D|-----------------------------|--
A|-----7-----------------------|--
E|--0-----6--5-----3--3--4--5--|--

Stave 7:

G|--------------------|--------------|-----------------|--------------|--
D|-----------7--5--7--|--------7-----|--------7--5--7--|-----------5--|--
A|--0-----------------|--0--0--------|--0--------------|--5--5--7-----|--
E|--------------------|--------------|-----------------|--------------|--

Stave 8:

G|--------------------------|--
D|--7--5--5--7--5--5--7--0--|--
A|--------------------------|--
E|--------------------------|--

http://www.guitartabcreator.com
Guitar Tab Creator is intended to store guitar tab created through the tool. It currently does not support in-line text editing. Any text you place in here will be lost. If you need to comment on your tab, please use the "Tab Notes" section located below.