Sound will begin in 5 seconds

Actually Sounds Okay 1

Chords
01234567891011121314151617181920212223
E
B
G
D
A
E
B
0 1 2 3 4 5 6 7 8 9 10 11 12 13 14 15 16 17 18 19 20 21 22 23
Song Science #1: How Pros Use 6 Chords to Write Hit Songs
(/) Slide Up  (\) Slide Down  (h) Hammer On  (p) Pull Off  (b) Bend (r) Release (v) Vibrato

Stave 1:

E|---------------------------------------------------
B|---------------------------------------------------
G|--------8----------------------------8-------------
D|-------------------7----------------------------9--
A|--7--9-----7--7h9-----9--7-----7--9-----7--7h9-----
D|---------------------------------------------------

Stave 2:

E|--7--7--------9---9---9------5--5--5--------7--7--
B|--7--7--------9---9---9------5--5--5--------7--7--
G|--8--8--------10--10--10-----6--6--6--------8--8--
D|--9--9--------11--11--11-----7--7--7--------9--9--
A|--9--9--------11--11--11-----7--7--7--------9--9--
D|--7--7--------9---9---9------5--5--5--------7--7--

Stave 3:

E|--10--10--10--12--12-----7--7-----7--7--
B|--11--11--11--13--13-----8--8-----8--8--
G|--10--10--10--12--12-----7--7-----7--7--
D|----------------------------------------
A|----------------------------------------
D|----------------------------------------

Stave 4:

E|--------------------------------------------------------------
B|--------------------------------------------4--4-----4--4--4--
G|--1--1-----1--1--1-----4--4-----4--4--4-----5--5-----5--5--5--
D|--2--2-----2--2--2-----5--5-----5--5--5-----5--5-----5--5--5--
A|--2--2-----2--2--2-----5--5-----5--5--5-----3--3-----3--3--3--
D|--0--0-----0--0--0-----3--3-----3--3--3-----------------------

Stave 5:

E|--------------------------------------------------------------------------------------------
B|--------------------------------------------------------------------------------------------
G|-----------------------------------------------5--5-----5--5--5--------2--2-----2--2--2-----
D|--2--2-----2--2--2--------5--5-----5--5--5-----5--5-----5--5--5--------2--2-----2--2--2--1--
A|--2--2-----2--2--2--------5--5-----5--5--5-----3--3-----3--3--3--2--------------------------
D|--2--2-----2--2--2--0-----5--5-----5--5--5--0-----------------------------------------------

http://www.guitartabcreator.com
Guitar Tab Creator is intended to store guitar tab created through the tool. It currently does not support in-line text editing. Any text you place in here will be lost. If you need to comment on your tab, please use the "Tab Notes" section located below.