Sound will begin in 5 seconds

Virtual Insanity

Chords
01234567891011121314151617181920212223
E
B
G
D
A
E
B
0 1 2 3 4 5 6 7 8 9 10 11 12 13 14 15 16 17 18 19 20 21 22 23
Song Science #1: How Pros Use 6 Chords to Write Hit Songs
(/) Slide Up  (\) Slide Down  (h) Hammer On  (p) Pull Off  (b) Bend (r) Release (v) Vibrato

Stave 1:

E|--6-----4-----4--------------------------
B|--7-----4-----4-----2-----4-----4-----7--
G|--6-----5-----4-----3-----3-----3-----7--
D|--8-----4-----3-----3-----4-----4-----x--
A|--6-----6-----4-----x-----3-----2-----x--
E|--------4-----------2-----------------6--

Stave 2:

E|--------6------------4------------4------------------------------------------------------
B|--------7------------4------------4------------2------------4------------4------------7--
G|--------6------------5------------4------------3------------3------------3------------7--
D|--------8------------4------------3------------3------------4------------4------------x--
A|--4--5--6------------6-----3p4--4------------x-----2p3--3-----3p2--2------------x--
E|--------------5p4--4------------------3p2--2-------------------------------5p6--6--

Stave 3:

E|------------------------------------------------------------------
B|--7-----6-----7-0--------4-----6--------------------------------
G|--8-----5-----6-0--3-----5-----7--------------------------------
D|--8-----6-----8-0--3-----4-----6--------------------------------
A|--x-----5-----6-0--x-----6-----8--------------------------------
E|--7------------------2-----4-----6--------------------------------

Stave 4:

E|--------------6--6--------------------------------------
B|--7-----6-----7--7--4-----6-----------------------------
G|--8-----5-----6--6--5-----7-----------------------------
D|--8-----6-----8--8--4-----6-----------------------------
A|--x-----5-----6--6--6-----8-----------------------------
E|--7-----------------4-----6-----------------------------

Stave 5:

E|--------6-----6--6--4--6--------------------------------------------------
B|--7-----9-----7--7--4--6--------------------------------------------------
G|--8-----7-----6--6--5--7--------------------------------------------------
D|--8-----8-----8--8--4--6--------------------------------------------------
A|--x-----x-----6--9--6--8--------------------------------------------------
E|--7-----6-----------4--6--------------------------------------------------

http://www.guitartabcreator.com
Guitar Tab Creator is intended to store guitar tab created through the tool. It currently does not support in-line text editing. Any text you place in here will be lost. If you need to comment on your tab, please use the "Tab Notes" section located below.