Sound will begin in 5 seconds

Subwoofer Lullaby

01234567891011121314151617181920212223
E
B
G
D
A
E
B
0 1 2 3 4 5 6 7 8 9 10 11 12 13 14 15 16 17 18 19 20 21 22 23
Top Courses in Music 160x600
(/) Slide Up  (\) Slide Down  (h) Hammer On  (p) Pull Off  (b) Bend (r) Release (v) Vibrato

Stave 1:

E|-----------------------------------------------------------------------------------------------------------------------------------------------------------------------------------5-----------------------------------------3-----------3-----------3-----------3-----------3-----------3-----------3-----------3-----
B|-----------------------5-----5-----------------------------------------5-----------5-----8-----5-----------6-----5-----------------------------5-----------6-----5-----------------------8-----5-----------------------------------5-----------------------5-----------------------5-----------------------5-----------
G|-----4-----5-----7-----------------7-----5-----4-----5-----------------------7-----------------------7-----------------5-----------5-----4-----------7-----------------5-----------------------------7-----4-----------5-----------------------5-----------------------5-----------------------5-----------------------
D|-----------------------------------------------------------5-----7-----------------------------------------------------------7-----------------------------------------------7-----------------------------------5-----------------------------------------------------------------------------------------------------
A|-----------------------------------------------------------------------------------------------------------------------------------------------------------------------------------------------------------------------------------------------------------------------------------------------------------------------
E|-----------------------------------------------------------------------------------------------------------------------------------------------------------------------------------------------------------------------------------------------------------------------------------------------------------------------

Stave 2:

E|--------------------------------------------------------------------------------------------------------------------------------
B|-----13------------13------------12---------------------------------------------------------------------------------------------
G|------------12------------12------------12-----12-----9-----7-----9-----10-----9-----9-----10-----9-----7-----5-----7-----9-----
D|--------------------------------------------------------------------------------------------------------------------------------
A|--------------------------------------------------------------------------------------------------------------------------------
E|--------------------------------------------------------------------------------------------------------------------------------

Stave 3:

E|-----------------------------------------------------------------------------------------------
B|------------------------------------------------------------13-----12--------------------------
G|-----12-----12-----12-----12-----10-----10-----9--------------------------12-----12------------
D|-----------------------------------------------------12---------------------------------14-----
A|-----------------------------------------------------------------------------------------------
E|-----------------------------------------------------------------------------------------------

Stave 4:

E|-----12-------------------------------------------------------------------------------------------------------------
B|------------12------------5-----------12--------------------------8-----------------------8-----10------------------
G|-------------------12-----------5------------12-------------------------9-----------9-------------------------9-----
D|----------------------------------------------------12-----10-----------------7------------------------10-----------
A|--------------------------------------------------------------------------------------------------------------------
E|--------------------------------------------------------------------------------------------------------------------

Stave 5:

E|-----------------------------------------------------
B|-----12----------------------------------------------
G|------------12-------------------9-------------------
D|-------------------12-----12-----------10-----10-----
A|-----------------------------------------------------
E|-----------------------------------------------------

Stave 6:

E|------------8-----10-----12-----15-----12------------8---------------------------------------
B|-----12----------------------------------------------------10------------10------------------
G|----------------------------------------------10------------------12-------------------9-----
D|--------------------------------------------------------------------------------10-----------
A|---------------------------------------------------------------------------------------------
E|---------------------------------------------------------------------------------------------

Stave 7:

E|-----
B|-----
G|-----
D|-----
A|-----
E|-----

http://www.guitartabcreator.com
Guitar Tab Creator is intended to store guitar tab created through the tool. It currently does not support in-line text editing. Any text you place in here will be lost. If you need to comment on your tab, please use the "Tab Notes" section located below.