Folsom Prison Blues

(/) Slide Up  (\) Slide Down  (h) Hammer On  (p) Pull Off  (b) Bend (r) Release (v) Vibrato
E|-------------------------|--------------|--------------|--------------|--------------|--
B|-------------------------|--------------|--------------|--------------|--------------|--
G|-------------------------|--------------|--------------|--------------|--------------|--
D|-----------0--0----------|-----2-----2--|--------------|-----2-----2--|-----2-----2--|--
A|--2--2--2--------2-------|--------2-----|--------------|--0-----------|--------2-----|--
E|--------------------2b0--|--0-----------|--0--0--2--4--|--------0-----|--0-----------|--



E|--------------|--------------|-------7--10--7--10--7--|-------7--10--7--10--|-----
B|--------------|--------------|--8h9-------------------|--8h9----------------|-----
G|--------------|--------------|------------------------|---------------------|-----
D|-----1-----1--|-----2-----2--|------------------------|---------------------|-----
A|--2-----------|--------2-----|------------------------|---------------------|-----
E|--------2-----|--0-----------|------------------------|---------------------|-----



E|-------7--10--7--10--7--|-------7--10--7--10--7\4-----|-----5--5--5--5--|--5--5--0-----|--
B|--8h9-------------------|--8h9---------------------5--|-----2--2--2--2--|--2--2-----0--|--
G|------------------------|-----------------------------|-----2--2--2--2--|--2--2--------|--
D|------------------------|-----------------------------|-----2--2--2--2--|--2--2--------|--
A|------------------------|-----------------------------|--0--0--0--0--0--|--0--0--------|--
E|------------------------|-----------------------------|-----0--0--0--0--|--0--0--------|--



E|--------5--0-----|---------9--0-----|-----0--0--0-----|-----2--2--2--|----------------|--
B|-----5--------0--|-----10-----------|-----0--0--0-----|-----0--0--0--|----------------|--
G|--6--------------|--9------------0--|-----1--1--1--0--|-----2--2--2--|----------------|--
D|-----------------|------------------|-----2--2--2-----|-----1--1--1--|----------------|--
A|-----------------|------------------|-----2--2--2-----|--2--2--2--2--|--2--2--1-------|--
E|-----------------|------------------|--0--0--0--0-----|-----0--0--0--|-----------2b0--|--



E|--------------|-------------------------|--0--0--0--0--0--|--
B|--------------|-------------------------|--0--0--0--0--0--|--
G|--------------|-------------------------|--1--1--1--0--1--|--
D|-----2-----2--|-----------1--1----------|--2--2--2--0--2--|--
A|--------2-----|--2--2--2--------2-------|--2--2--2--0--2--|--
E|--0-----------|--------------------2b0--|--0--0--0--0--0--|--
http://www.guitartabcreator.com
Guitar Tab Creator is intended to store guitar tab created through the tool. It currently does not support in-line text editing. Any text you place in here will be lost. If you need to comment on your tab, please use the "Tab Notes" section located below.