Somebody Give Me A Grade by The Baljeatles

(/) Slide Up  (\) Slide Down  (h) Hammer On  (p) Pull Off  (b) Bend (r) Release (v) Vibrato
intro verse chorus
E|-----------------------|-----------------------------------| |---------------------------------|
B|-----------------------|-----------------------------------| |---------------------------------|
D|-4-4--x--4-4--x--4-4\7-|-4-4--x--4-4-4--x--4-4--x--4-4-4\7-| |-7-7-7-7-7-7-7-7-7-7-7-7-7-7-7-7-|
A|-4-4--x--4-4--x--4-4\7-|-4-4--x--4-4-4--x--4-4--x--4-4-4\7-| |-7-7-7-7-7-7-7-7-5-5-5-5-5-5-5-5-|
E|-2-2--x--2-2--x--2-2\5-|-2-2--x--2-2-2--x--2-2--x--2-2-2\5-| |-5-5-5-5-5-5-5-5-----------------|

E|---------------------------------| |---|pattern:intro, verse, chorus, verse, verse, chorus
B|---------------------------------| |---| chorus can be strummed in a few patterns but this is
G|-4-4-4-4-4-4-4-4-----------------|x4|---| the easiest.
D|-4-4-4-4-4-4-4-4-4-4-4-4-4-4-4-4-| |-7-| p.s. i dont know the ending yet.
A|-2-2-2-2-2-2-2-2-4-4-4-4-4-4-4-4-| |-7-|
E|-----------------2-2-2-2-2-2-2-2-| |-5-|

The scratches (the x's) are

The scratches (the x's) are drum beats so if u have a drummer playing u dont need them but i use them because i dont have a drummer

Guitar Tab Creator is intended to store guitar tab created through the tool. It currently does not support in-line text editing. Any text you place in here will be lost. If you need to comment on your tab, please use the "Tab Notes" section located below.