Alkinoos Ioannides Album: Giati den erxesai pote otan se thelo guitar tabs and chords(fixed)

(/) Slide Up  (\) Slide Down  (h) Hammer On  (p) Pull Off  (b) Bend (r) Release (v) Vibrato


E|-------------------------------------------------------------------------------------------------
B|-------------------------------------------------------------------------------------------------
G|---------------------------------------------------------------------0---------------------------
D|-----0h2-----2--0-----0h2-----2--0-----0h2-----2--0-----0h2-----0h2--------0h2-----2--0-----0h2--
A|------------------------------------3-------3--------3-------3----------0-------0--------0-------
E|--0-------0--------0-------0---------------------------------------------------------------------



E|------------------------------------------------------------------------------------------------
B|------------------------------------------------------------------------------------------------
G|------------------------------------------------------------------------------------------------
D|-----2--0-----0h2-----2--0-----0h2-----2--0-----0h2-----2--0-----0h2-----2--0-----0h2-----2--0--
A|--0----------------------------------------------------------------------------3-------3--------
E|-----------0-------0--------0-------0--------0-------0--------0-------0-------------------------



E|-----------------------------------------------------------------------------------------------
B|-----------------------------------------------------------------------------------------------
G|-----------------------------------------------------------------------------------------------
D|-----0h2-----2--0-----0h2-----2--0-----0h2-----2--0-----0h2-----2--0-----0h2-----2--0-----0h2--
A|--3-------3------------------------------------------0-------0--------0-------0--------3-------
E|-------------------0-------0--------0-------0--------------------------------------------------



E|--------------------------------------------------------------------------------------------------
B|--------------------------------------------------------------------------------------------------
G|-------------------------------------------------------------0------------------------------------
D|-----2--0-----0h2-----2--0-----0h2-----2--0-----0h2-----0h2--------0h2-----2--0-----0h2-----2--0--
A|--3--------3-------3--------------------------------------------3-------3--------3-------3--------
E|----------------------------0-------0--------0-------0--------------------------------------------



E|--------------------------------------------------------------------------------------------------
B|--------------------------------------------------------------------------------------------------
G|--------------------------------------------------------------------------------------------------
D|-----0h2-----2--0-----0h2-----2--0-----0h2-----2--0-----0h2-----2--0-----0h2-----2--0-----0h2-----
A|------------------------------------3-------3--------3-------3------------------------------------
E|--0-------0--------0-------0------------------------------------------0-------0--------0----------



E|------------------------------------------------------------------------------------------------
B|------------------------------------------------------------------------------------------------
G|------------------------------------------------------------------------------------------------
D|-----2--0-----0h2-----2--0-----0h2-----2--0-----0h2-----2--0-----0h2-----2--0-----0h2-----2--0--
A|-----------0-------0--------0-------0--------3-------3--------3-------3-------------------------
E|--0----------------------------------------------------------------------------0-------0--------



E|--------------------------------------------------------------------------------------------------
B|--------------------------------------------------------------------------------------------------
G|--------------------------------------------------------------------------------------------------
D|-----0h2-----2--0-----0h2-----2--0-----0h2-----2--0-----0h2-----2--0-----0h2-----0h2-----2--0-----
A|-------------------3-------3--------3-------3--------0-------0--------0---------------------------
E|--0-------0-------------------------------------------------------------------0-------0--------0--
http://www.guitartabcreator.com
Guitar Tab Creator is intended to store guitar tab created through the tool. It currently does not support in-line text editing. Any text you place in here will be lost. If you need to comment on your tab, please use the "Tab Notes" section located below.