part 1

(/) Slide Up  (\) Slide Down  (h) Hammer On  (p) Pull Off  (b) Bend (r) Release (v) Vibrato


E|-----1-----1-----1-----1-----1-----1-----1-----1-----1-----1-----3-----3-
B|---3-----3-----3-----3-----3-----3-----3-----3-----3-----3-----4-----4---
G|-2-----2-----2-----2-----2-----2-----2-----2-----3-----3-----3-----3-----
D|-0-----------------------------------------------------------------------
A|-------------------------3-----------------------1-----------------------
E|-------------------------------------------------------------5-----------



E|-----3-----1-----0-----0---------------------------0-----0-----0-----0---
B|---2-----3-----3-----2-------3-----3-----3-----6-----8-----8-----8-----8-
G|-2-----2-----2-----0-------2-----2-----2-----7---------------------------
D|-------------------------3-----3-----3-----7---7-7-----7-----7-----7---7-
A|-0-----------0-----------------------------------4-----------------4-----
E|-------------------------0-----------------0-----------------------------



E|-----------------3-----3-----1-----1-----------6-----5-----5-----1-----1-
B|-----6-----6---3-----3-----1-----1-------5---5-----6-----6-----1-----1---
G|---7-----7---3-----3-----2-----2-------3---5-----------5-----2-----2-----
D|-7-----7-----------------------------5-----------3-----------------------
A|-------------------------3-----------3-----3-----------------------------
E|-0-----------5-----------------------------------3-----------3-----------



E|-----1-----1-----1-----1-----2-----2-----2-----2-----1-----1-----1-----1-
B|---1-----1-----1-----1-----1-----1-----1-----1-----2-----1-----3-----3---
G|-1-----1-----1-----1---1-1-----1-----1-----1---1-1-----1-----1-----0-----
D|-------------------3-----1-----------------1-----------------------------
A|-------------------------------------------------4-----3-----2-----2-----
E|-3-----------------------------------------------------------------------



E|-----------------------------------------------------------3-----3-----3-
B|-----4-----4-----3-----3-----4-----4-----3-----3-----4---4-----5-----5---
G|---5-----5-----5-----5-----5-----5-----4-----4-----5---5-----5-----5-----
D|-5-----5-----6-----3-----5-----5-----5-----5-----------------------------
A|-3-----------------------------------------------3-----------------3-----
E|-------------3-----6-----5-----------5-----------------------------------



E|-----4------------------3-----3-----3-----3-----4--------------------
B|---6-----6-9-0----9---5-----5-----5-----5-----6-----6-9---6-9-0----9-
G|-6-----6-------10---5-----5-----5-----5-----6-----6-----6-------10---
D|--------------------------------------------------------6------------
A|-3-----8-----8------3-----------------3-----3-----8-----------8------
E|---------------------------------------------------------------------



E|-----3-----3-----2-----5-----5-----3-----3-------------------------
B|---5-----5-----4-----3-----3-----3-----3-------4-----4-----5-----5-
G|-5-----5-----5-----5-----5-----3-----3-------5-----5-----3-----3---
D|-------------------------------------------6-----6-----5-----5-----
A|-3-----------0-----------------------------3-----------4-----------
E|-------------------4-----------5-----------------------------------



E|-----------------------------------3-----6-----6--------8------8------8------8-
B|-----------------------------3---3-----8-----8-------10-----10-----10-----10---
G|-----3-----3-----2-----2---3---3-----7-----7-----7-7------7------7------7----7-
D|---5-----5-----5-----4---5-----------------5-----------------------------------
A|-5-----5-----5-----5-------------------------------9--------------------9------
E|-0-----------0-----------5-----------------------------------------------------



E|-----6-----6-----6-----6-0--------0-------0-------0----------------10-------10-----6-----7-
B|---8-----8-----8-----8---------11------10------10---------10----10-------10----5-8-----6---
G|-7-----7-----6-----7--------12------12------12---------12----10-------10-------------7-----
D|-5-----------------0-----------------------------------------0-----------------------------
A|-------------7-----------------------------------------------------------------------------
E|-------------------------11-------------------------11-------------------------5-----6-----



E|-9-----5-----6-----3---------0-----0-----0-----0---------10-------13-------10-------
B|-----5-----5-----5-----5---2-----2-----2-----2--------10-------10-------10-------10-
G|---6-----6-----6-----6---------2-----3-------------10-------10-------10-------10----
D|-------------------------------------------5----------------------------------------
A|-0-----------------------0-----------------------0----------------------------------
E|------------------------------------------------------------------------------------



E|-------------1---------------------0---3-0-6---9------------------------13-10----
B|-------3-----------3-----------2-----2-------8--------------10----10----------10-
G|-----2-----2-----2-----2---3-0---3-----------------7---10-7----10----10----------
D|---3-----3-----3-----3---2---------------------------7---------------------------
A|-0-----------------------0-----------0-----------8-------------0-----------------
E|-------------------------------------------------7-------------------------------



E|--------7---10----13----16----19-----------------11------------12--------------------------
B|---9------9----11----15----18----------------8------11-8-14-11-------11---8----------------
G|-7---10--------------------------0------9------9------------------12----9------9---6-------
D|-----------------------------------11-8---11--------------------------------11---8---5-8-2-
A|-0-------------0-----------------0-------------0-------------------------------------------
E|-------------------------------------------------------------------------------------------



E|-
B|-
G|-
D|-
A|-
E|-
http://www.guitartabcreator.com
Guitar Tab Creator is intended to store guitar tab created through the tool. It currently does not support in-line text editing. Any text you place in here will be lost. If you need to comment on your tab, please use the "Tab Notes" section located below.