Eptic - Oh Snap!

(/) Slide Up  (\) Slide Down  (h) Hammer On  (p) Pull Off  (b) Bend (r) Release (v) Vibrato
E|------------------
B|------------------
G|------------------
D|--15--17--18--15--
A|------------------
E|------------------



E|----------------------
B|--18--18--21----------
G|--------------17------
D|----------------------
A|------------------20--
E|----------------------



E|----------------------
B|----------------------
G|----------------------
D|--15--15--17--18--15--
A|----------------------
E|----------------------



E|----------------------------------------------
B|--18--18--21----------------------------------
G|--------------17--17--20------17--------------
D|--------------------------20------17--18--15--
A|----------------------------------------------
E|----------------------------------------------



E|----------------------------------------------
B|----------------------------------------------
G|----------------------17--15--17--------------
D|--15--15--17--18--18--------------17--18--15--
A|----------------------------------------------
E|----------------------------------------------



E|----------
B|----------
G|----------
D|--15------
A|------18--
E|----------



E|----------------------------------------------
B|--18--18--21----------------------------------
G|--------------17--17--20------17--------------
D|--------------------------20------17--18--15--
A|----------------------------------------------
E|----------------------------------------------



E|----------------------------------------------
B|----------------------------------------------
G|----------------------17--15--17--------------
D|--15--15--17--18--18--------------17--18--15--
A|----------------------------------------------
E|----------------------------------------------



E|----------
B|----------
G|----------
D|--15------
A|------18--
E|----------



E|--------------20----------------------------------------------
B|--18--18--21------21--18--------------------------------------
G|--------------------------20--15--17--------------------------
D|--------------------------------------17--18--15--17----------
A|------------------------------------------------------18--15--
E|--------------------------------------------------------------



E|------------------------------------------------------------------
B|------------------------------------------------------------------
G|--------------17--------------17--------------17--------------17--
D|------17--18----------17--18----------17--18----------17--17------
A|--20--------------20--------------20--------------20--------------
E|------------------------------------------------------------------



E|----------------------------------------------
B|----------------------------------------------
G|----------------------17--15--17--------------
D|--15--15--17--18--18--------------17--18--15--
A|----------------------------------------------
E|----------------------------------------------



E|----------
B|----------
G|----------
D|--15------
A|------18--
E|----------



E|----------------------------------
B|--18--------------18--------------
G|------17--16----------17--16--17--
D|--------------15------------------
A|----------------------------------
E|----------------------------------



E|--------------------------------------------------------------------------------------
B|--------------------------------------------------------------------------------------
G|--------------17--------------17--------------17------------------17--------------17--
D|------17--17----------17--18----------17--18--------------17--18----------17--18------
A|--20--------------20--------------20--------------20--20--------------20--------------
E|--------------------------------------------------------------------------------------



E|------
B|------
G|------
D|--15--
A|------
E|------



E|----------
B|----------
G|----------
D|--15--15--
A|----------
E|----------



E|--
B|--
G|--
D|--
A|--
E|--
http://www.guitartabcreator.com
Guitar Tab Creator is intended to store guitar tab created through the tool. It currently does not support in-line text editing. Any text you place in here will be lost. If you need to comment on your tab, please use the "Tab Notes" section located below.