Linkin Park - New Divide

(/) Slide Up  (\) Slide Down  (h) Hammer On  (p) Pull Off  (b) Bend (r) Release (v) Vibrato
E|-------------------------|------------------------------
B|-------------------------|------------------------------
G|------8--10--10--10--10--|------10--8--8------8---------
D|--10---------------------|--10------------10-----10-----
A|-------------------------|------------------------------
E|-------------------------|------------------------------



E|-------------------------|-----------------------
B|-------------------------|-----------------------
G|------8--10--10--10--10--|------10--8--8------8--
D|--10---------------------|--10------------10-----
A|-------------------------|-----------------------
E|-------------------------|-----------------------



E|-------------------------|--------------------------
B|-------------------------|--------------------------
G|------8--10--10--10--10--|------10--8--8------8-----
D|--10---------------------|--10------------10-----8--
A|-------------------------|--------------------------
E|-------------------------|--------------------------



E|-----------------------|-----------------------
B|-----1--1--------------|-----1--1--------------
G|-----------3--3--1--3--|-----------3--3--1--3--
D|--3--------------------|--3--------------------
A|-----------------------|-----------------------
E|-----------------------|-----------------------



E|------16--15--16--13--|--13--16--16--15--|--13--15--15--15--13--13--
B|--13------------------|------------------|--------------------------
G|----------------------|------------------|--------------------------
D|----------------------|------------------|--------------------------
A|----------------------|------------------|--------------------------
E|----------------------|------------------|--------------------------



E|--13--15--16--13--|--13--16--16--16--18--18--
B|------------------|--------------------------
G|------------------|--------------------------
D|------------------|--------------------------
A|------------------|--------------------------
E|------------------|--------------------------



E|--16--15--16--13--|--13--16--16--15--|--13--15--13--15--13--13--
B|------------------|------------------|--------------------------
G|------------------|------------------|--------------------------
D|------------------|------------------|--------------------------
A|------------------|------------------|--------------------------
E|------------------|------------------|--------------------------



E|--13--15--16--|--16--15--|--13--16--|--16--15--13--15--|------16--16--15--13--13--
B|--------------|----------|----------|------------------|--13----------------------
G|--------------|----------|----------|------------------|--------------------------
D|--------------|----------|----------|------------------|--------------------------
A|--------------|----------|----------|------------------|--------------------------
E|--------------|----------|----------|------------------|--------------------------



E|-------------------------|---------------------------
B|-------------------------|---------------------------
G|------8--10--10--10--10--|------10--8--8------8------
D|--10---------------------|--10------------10-----10--
A|-------------------------|---------------------------
E|-------------------------|---------------------------



E|-------------------------|-----------------------
B|-------------------------|-----------------------
G|------8--10--10--10--10--|------10--8--8------8--
D|--10---------------------|--10------------10-----
A|-------------------------|-----------------------
E|-------------------------|-----------------------



E|---------------------|-----------------------
B|---------------------|-----------------------
G|------8--10--10--10--|------10--8--8---------
D|--10-----------------|--10------------10--8--
A|---------------------|-----------------------
E|---------------------|-----------------------



E|-----1--1--------------|-----1--1--------------
B|--1--------4--4--1--4--|--1--------4--4--1--4--
G|-----------------------|-----------------------
D|-----------------------|-----------------------
A|-----------------------|-----------------------
E|-----------------------|-----------------------



E|------16--15--16--13--|--13--16--16--15--|--13--15--15--15--13--13--
B|--13------------------|------------------|--------------------------
G|----------------------|------------------|--------------------------
D|----------------------|------------------|--------------------------
A|----------------------|------------------|--------------------------
E|----------------------|------------------|--------------------------



E|--13--15--16--13--|--13--16--16--16--18--18-----
B|------------------|-----------------------------
G|------------------|-----------------------------
D|------------------|-----------------------------
A|------------------|-----------------------------
E|------------------|-----------------------------



E|------16--16--15--13--13--
B|--13----------------------
G|--------------------------
D|--------------------------
A|--------------------------
E|--------------------------



E|-----------------|------------
B|-----------------|------------
G|-----10--10--10--|--10--8--8--
D|--8--------------|------------
A|-----------------|------------
E|-----------------|------------



E|------------------------------
B|------------------------------
G|-----10--10--10--8--10--8--8--
D|--8---------------------------
A|------------------------------
E|------------------------------
http://www.guitartabcreator.com
Guitar Tab Creator is intended to store guitar tab created through the tool. It currently does not support in-line text editing. Any text you place in here will be lost. If you need to comment on your tab, please use the "Tab Notes" section located below.