one intro solo

(/) Slide Up  (\) Slide Down  (h) Hammer On  (p) Pull Off  (b) Bend (r) Release (v) Vibrato

E|---------------------------------------------------------------------------
B|---------------------------------------------------------------------------
G|----------------------------------------------------------------------0----
D|-----4-----0-------------4-----0-----------4-----0-----------4-----0-------
A|--2-----2-------------------------------2-----2----------------------------
E|----------------------3-----3-----------------------------3-----3----------



E|----------------------------------------------------------------
B|----------------------------------------------------------------
G|----------------------------------------------------------------
D|-----4-----0---------4-----0---------4-----0--------------------
A|--2-----2---------0-----0------------------------------2-----2--
E|----------------------------------3-----3-----------0-----2-----
*play last two bars throughout solo


E|------------------------------------------------
B|------------------3p2-------3p2-----3--3p2------
G|----------2--4b4-------4---------2----------4v--
D|-----2h4----------------------------------------
A|--2---------------------------------------------
E|------------------------------------------------



E|-------------------------------------------------------------------------------
B|-----------------------------------------------2h3p2v---------2--3p2-----------
G|--11p9\7--9p7\6--7p6p0--6p4p0--2--2/4v----2/4------------2/4----------2--2/4v--
D|-------------------------------------------------------------------------------
A|-------------------------------------------------------------------------------
E|-------------------------------------------------------------------------------



E|--------------14--19v----17p15--14h15----------------------------------------------------
B|----------15---------------------------15v-----------------------------------------------
G|------16----------------------------------------7p6h7--9p7h9--11p9h11----11/12--12--11v--
D|--16-------------------------------------------------------------------------------------
A|-----------------------------------------------------------------------------------------
E|-----------------------------------------------------------------------------------------



E|-----------------------------------------------------------------------------
B|------------10-------------12-------------12/14/15/17-15-14-12-14-14-15p12---
G|------11h12----------11h12----------11h12------------------------------------
D|-9h12-----------9h12-----------9h12------------------------------------------
A|-----------------------------------------------------------------------------
E|-----------------------------------------------------------------------------



E|-----------------------------
B|-----------------------------
G|-----------------------------
D|-----------------------------
A|-----2-----2-----2--2h4--2v--
E|--0-----2-----2--------------
http://www.guitartabcreator.com
Guitar Tab Creator is intended to store guitar tab created through the tool. It currently does not support in-line text editing. Any text you place in here will be lost. If you need to comment on your tab, please use the "Tab Notes" section located below.