T.R.A.M. - Endeavor

(/) Slide Up  (\) Slide Down  (h) Hammer On  (p) Pull Off  (b) Bend (r) Release (v) Vibrato


E|----------------------------------------------------------------------------------------------------------
B|------------------8--8----------------------------------------------8--8----------------------------5--5--
G|------------------------8--8--------------------------8--8----------------8--8----------------------------
D|--11--11----------------------11--11----------11--11--------11--11--------------11--11--7--7--------------
A|----------11--11----------------------11--11--------------------------------------------------7--7--------
E|----------------------------------------------------------------------------------------------------------



E|--------------------------
B|--5--5--------------------
G|--------5--5--------------
D|--------------7--7--------
A|--------------------7--7--
E|--------------------------
http://www.guitartabcreator.com
Guitar Tab Creator is intended to store guitar tab created through the tool. It currently does not support in-line text editing. Any text you place in here will be lost. If you need to comment on your tab, please use the "Tab Notes" section located below.