Step Within The Sun

(/) Slide Up  (\) Slide Down  (h) Hammer On  (p) Pull Off  (b) Bend (r) Release (v) Vibrato

Intro

G|-------------------------------------------------------------
D|-10----10----10----------10-12-10----10----10----------10-12-
A|----12----12----12-10-12----------10----10----10-10-12-------
D|-------------------------------------------------------------



G|---------------------------------------------------
D|-10---10---10---10---9---9-------7-9-10-9-10/12-10-
A|----8----8----8----8---7---7-7-9-------------------
D|---------------------------------------------------


G|---------------------------------------------------
D|---------------------------------------------------
A|---------------------------------------------------
D|-12-12-12-12-12-12-12-12-12-12-12-12-12-12-12-12---



G|-------------------------------------------------
D|-------------------------------------------------
A|-------------------------------------------------
D|-10-10-10-10-10-10-10-10-10-10-10-10-10-10-10-10-



G|---------------------------------
D|---------------------------------
A|---------------------------------
D|-8-8-8-8-8-8-8-8-8-8-8-8-8-8-8-8-



G|---------------------------------
D|---------------------------------
A|---------------------------------
D|-7-7-7-7-7-7-7-7-7-7-7-7-7-7-7-7-
http://www.guitartabcreator.com
Guitar Tab Creator is intended to store guitar tab created through the tool. It currently does not support in-line text editing. Any text you place in here will be lost. If you need to comment on your tab, please use the "Tab Notes" section located below.