Aaarrreee Yyyooouuu Aaalllrrriiiggghhhttt??? Verse Bass Line

(/) Slide Up  (\) Slide Down  (h) Hammer On  (p) Pull Off  (b) Bend (r) Release (v) Vibrato

E|-----------------------------------------------------
B|-----------------------------------------------------
G|-------------------------1---------------------------
D|----------------3--3--3-----3----------------1-------
A|-------------3----------------------------3-------3--
E|--4--4h3--4--------------------4--4h3--4-------------



E|-----------------------------------------------------
B|-----------------------------------------------------
G|-------------------------1---------------------------
D|----------------3--3--3-----3----------------2-------
A|-------------3----------------------------3-------3--
E|--4--4h3--4--------------------4--4h3--4-------------
http://www.guitartabcreator.com
Guitar Tab Creator is intended to store guitar tab created through the tool. It currently does not support in-line text editing. Any text you place in here will be lost. If you need to comment on your tab, please use the "Tab Notes" section located below.