Violence part and Idea Chords

(/) Slide Up  (\) Slide Down  (h) Hammer On  (p) Pull Off  (b) Bend (r) Release (v) Vibrato

E|-----------------------------------| --------------------------------------
B|-----------------------------------| --------------------------------------
G|--6--6--6--6--6--6--5--5--5--5--5--| --4--4--4--4--4--4--2--2--2--2--2--2--
D|--7--7--7--7--7--7--7--7--7--7--7--| X2--5--5--5--5--5--5--5--5--5--5--5--5-- X2
A|--7--7--7--7--7--7--7--7--7--7--7--| --5--5--5--5--5--5--5--5--5--5--5--5--
E|-----------------------------------| --------------------------------------

1 2 3 4 (4) (4)

E|---------------------- ------------
B|---------------------- ------------
G|----7----5----5------- --0----4---- (these last two are alternates to chord #4)
D|----7----7----5----5-- --5----5----
A|----5----8----3----5-- --2----2----
E|----5----5----3----3-- --3----3----

Guitar Tab Creator is intended to store guitar tab created through the tool. It currently does not support in-line text editing. Any text you place in here will be lost. If you need to comment on your tab, please use the "Tab Notes" section located below.